ToraDora! - Yasashisa no Ashioto Guitar Tab

37.535
TAB


there was a slight error before.. fixed now though


e -----------------------------------------------
b --------------------------------------------12--10
g -7/11----9--12--11--11/7--9---7---------------9--7
d -----------------------------------------------
a -----------------------------------------------
e -----------------------------------------------

e -----------------------------------------------
b --10--8-7-8-7----------------------------------
g --------------------7--9----9--7-6-7-7---7/9/7------
d -----------------------------------------------
a -----------------------------------------------
e -----------------------------------------------

e -----------------------------------------------
b ---------10----8---------------10----12-10-8---
g 6--7--9---------------6--7--9------------------
d -----------------------------------------------
a -----------------------------------------------
e -----------------------------------------------

e ---------10---------------------------------------------
b 8-7--10------12--10----8/7/8--8--7----------7-8-10-10---
g ----------------------------------------------7--9----------------
d --------------------------------------------------------
a --------------------------------------------------------
e --------------------------------------------------------

e ---------12-12----14-12-10----------12-12---12-14-15-----10
b 14-15---------------------------14-15------------------------
g --------------------------------------------------------
d --------------------------------------------------------
a --------------------------------------------------------
e --------------------------------------------------------

e --------------------------------------------------------
b ---10---8-7--7/10--7-------------8-7----8-7----------------
g ----------------------------9-7--9--------7-------7-7/9-11-9-----
d --------------------------------------------------------
a --------------------------------------------------------
e --------------------------------------------------------

e -----------------------------------------------
b -------------------------------------------12--10
g -7/11----9--12--11--11/7--9---7--------------9--7
d -----------------------------------------------
a -----------------------------------------------
e -----------------------------------------------

e ---------------------------------------------------------
b --10--8-7-8-7--------------------------------------------
g ------------------7--9---6-9--9-7-6-7-7--7/9/7---6--9--7----
d ---------------------------------------------------------
a ---------------------------------------------------------
e ---------------------------------------------------------

e -----------------------------------------------
b -----------------------------------------------
g -------9--7--------------------------------------
d -----------------------------------------------
a -----------------------------------------------
e -----------------------------------------------